ISO-10303-21;
HEADER;
FILE_DESCRIPTION(('CoCreate Modeling STEP Export'),'2;1');
FILE_NAME('CYMA_25.stp','2009-02-03T 8:43:38',(''),(''),
'CoCreate Modeling STEP processor for AP214 (Solid Model)',
'CoCreate Modeling 16.00A  16-Aug-2008 (C) Parametric Technology GmbH',
'');
FILE_SCHEMA(('AUTOMOTIVE_DESIGN { 1 0 10303 214 1 1 1 1 }'));
ENDSEC;
DATA;
#10=CARTESIAN_POINT('',(29.0068653946309,58.057183,-4.38245126753125));
#20=DIRECTION('',(0.,1.,1.11022302462516E-16));
#30=DIRECTION('',(-1.,0.,0.));
#40=AXIS2_PLACEMENT_3D('',#10,#20,#30);
#50=PLANE('',#40);
#60=CARTESIAN_POINT('',(35.922181456812,58.057183,-11.463720874298));
#70=DIRECTION('',(0.,1.,1.11022302462516E-16));
#80=DIRECTION('',(-1.,0.,0.));
#90=AXIS2_PLACEMENT_3D('',#60,#70,#80);
#100=CIRCLE('',#90,2.75);
#110=CARTESIAN_POINT('',(33.172181456812,58.057183,-11.463720874298));
#120=VERTEX_POINT('',#110);
#130=CARTESIAN_POINT('',(38.672181456812,58.057183,-11.463720874298));
#140=VERTEX_POINT('',#130);
#150=EDGE_CURVE('',#120,#140,#100,.T.);
#160=ORIENTED_EDGE('',*,*,#150,.T.);
#170=EDGE_CURVE('',#140,#120,#100,.T.);
#180=ORIENTED_EDGE('',*,*,#170,.T.);
#190=EDGE_LOOP('',(#180,#160));
#200=FACE_OUTER_BOUND('',#190,.T.);
#210=ADVANCED_FACE('',(#200),#50,.T.);
#220=CARTESIAN_POINT('',(35.922181456812,56.057183,-11.463720874298));
#230=DIRECTION('',(0.,1.,1.11022302462516E-16));
#240=DIRECTION('',(-1.,0.,0.));
#250=AXIS2_PLACEMENT_3D('',#220,#230,#240);
#260=TOROIDAL_SURFACE('',#250,2.75,2.);
#270=CARTESIAN_POINT('',(33.172181456812,56.057183,-11.463720874298));
#280=DIRECTION('',(0.,-1.11022302462516E-16,1.));
#290=DIRECTION('',(-1.,0.,0.));
#300=AXIS2_PLACEMENT_3D('',#270,#280,#290);
#310=CIRCLE('',#300,2.);
#320=CARTESIAN_POINT('',(31.172181456812,56.057183,-11.463720874298));
#330=VERTEX_POINT('',#320);
#340=EDGE_CURVE('',#120,#330,#310,.T.);
#350=ORIENTED_EDGE('',*,*,#340,.F.);
#360=CARTESIAN_POINT('',(35.922181456812,56.057183,-11.463720874298));
#370=DIRECTION('',(0.,1.,1.11022302462516E-16));
#380=DIRECTION('',(-1.,0.,0.));
#390=AXIS2_PLACEMENT_3D('',#360,#370,#380);
#400=CIRCLE('',#390,4.75);
#410=CARTESIAN_POINT('',(40.672181456812,56.057183,-11.463720874298));
#420=VERTEX_POINT('',#410);
#430=EDGE_CURVE('',#420,#330,#400,.T.);
#440=ORIENTED_EDGE('',*,*,#430,.T.);
#450=CARTESIAN_POINT('',(38.672181456812,56.057183,-11.463720874298));
#460=DIRECTION('',(0.,1.11022302462516E-16,-1.));
#470=DIRECTION('',(1.,0.,0.));
#480=AXIS2_PLACEMENT_3D('',#450,#460,#470);
#490=CIRCLE('',#480,2.);
#500=EDGE_CURVE('',#140,#420,#490,.T.);
#510=ORIENTED_EDGE('',*,*,#500,.T.);
#520=ORIENTED_EDGE('',*,*,#170,.F.);
#530=EDGE_LOOP('',(#520,#510,#440,#350));
#540=FACE_OUTER_BOUND('',#530,.T.);
#550=ADVANCED_FACE('',(#540),#260,.T.);
#560=ORIENTED_EDGE('',*,*,#150,.F.);
#570=ORIENTED_EDGE('',*,*,#500,.F.);
#580=EDGE_CURVE('',#330,#420,#400,.T.);
#590=ORIENTED_EDGE('',*,*,#580,.T.);
#600=ORIENTED_EDGE('',*,*,#340,.T.);
#610=EDGE_LOOP('',(#600,#590,#570,#560));
#620=FACE_OUTER_BOUND('',#610,.T.);
#630=ADVANCED_FACE('',(#620),#260,.T.);
#640=CARTESIAN_POINT('',(35.922181456812,57.057183,-11.463720874298));
#650=DIRECTION('',(0.,1.,1.11022302462516E-16));
#660=DIRECTION('',(-1.,0.,0.));
#670=AXIS2_PLACEMENT_3D('',#640,#650,#660);
#680=CYLINDRICAL_SURFACE('',#670,4.75);
#690=CARTESIAN_POINT('',(40.672181456812,57.057183,-11.463720874298));
#700=DIRECTION('',(0.,1.,1.11022302462516E-16));
#710=VECTOR('',#700,1.);
#720=LINE('',#690,#710);
#730=CARTESIAN_POINT('',(40.672181456812,37.557183,-11.463720874298));
#740=VERTEX_POINT('',#730);
#750=EDGE_CURVE('',#740,#420,#720,.T.);
#760=ORIENTED_EDGE('',*,*,#750,.F.);
#770=ORIENTED_EDGE('',*,*,#430,.F.);
#780=CARTESIAN_POINT('',(31.172181456812,57.057183,-11.463720874298));
#790=DIRECTION('',(0.,1.,1.11022302462516E-16));
#800=VECTOR('',#790,1.);
#810=LINE('',#780,#800);
#820=CARTESIAN_POINT('',(31.172181456812,37.557183,-11.463720874298));
#830=VERTEX_POINT('',#820);
#840=EDGE_CURVE('',#830,#330,#810,.T.);
#850=ORIENTED_EDGE('',*,*,#840,.T.);
#860=CARTESIAN_POINT('',(35.922181456812,37.557183,-11.463720874298));
#870=DIRECTION('',(0.,1.,1.11022302462516E-16));
#880=DIRECTION('',(-1.,0.,0.));
#890=AXIS2_PLACEMENT_3D('',#860,#870,#880);
#900=CIRCLE('',#890,4.75);
#910=EDGE_CURVE('',#740,#830,#900,.T.);
#920=ORIENTED_EDGE('',*,*,#910,.T.);
#930=EDGE_LOOP('',(#920,#850,#770,#760));
#940=FACE_OUTER_BOUND('',#930,.T.);
#950=ADVANCED_FACE('',(#940),#680,.T.);
#960=CARTESIAN_POINT('',(29.0068653946309,37.057183,-4.38245126753126));
#970=DIRECTION('',(0.,1.,1.11022302462516E-16));
#980=DIRECTION('',(-1.,0.,0.));
#990=AXIS2_PLACEMENT_3D('',#960,#970,#980);
#1000=PLANE('',#990);
#1010=CARTESIAN_POINT('',(35.922181456812,37.057183,-11.463720874298));
#1020=DIRECTION('',(0.,1.,1.11022302462516E-16));
#1030=DIRECTION('',(-1.,0.,0.));
#1040=AXIS2_PLACEMENT_3D('',#1010,#1020,#1030);
#1050=CIRCLE('',#1040,5.25);
#1060=CARTESIAN_POINT('',(30.672181456812,37.057183,-11.463720874298));
#1070=VERTEX_POINT('',#1060);
#1080=CARTESIAN_POINT('',(41.172181456812,37.057183,-11.463720874298));
#1090=VERTEX_POINT('',#1080);
#1100=EDGE_CURVE('',#1070,#1090,#1050,.T.);
#1110=ORIENTED_EDGE('',*,*,#1100,.F.);
#1120=EDGE_CURVE('',#1090,#1070,#1050,.T.);
#1130=ORIENTED_EDGE('',*,*,#1120,.F.);
#1140=EDGE_LOOP('',(#1130,#1110));
#1150=FACE_BOUND('',#1140,.T.);
#1160=CARTESIAN_POINT('',(35.922181456812,37.057183,-11.463720874298));
#1170=DIRECTION('',(0.,1.,1.11022302462516E-16));
#1180=DIRECTION('',(-1.,0.,0.));
#1190=AXIS2_PLACEMENT_3D('',#1160,#1170,#1180);
#1200=CIRCLE('',#1190,10.);
#1210=CARTESIAN_POINT('',(25.922181456812,37.057183,-11.463720874298));
#1220=VERTEX_POINT('',#1210);
#1230=CARTESIAN_POINT('',(45.922181456812,37.057183,-11.463720874298));
#1240=VERTEX_POINT('',#1230);
#1250=EDGE_CURVE('',#1220,#1240,#1200,.T.);
#1260=ORIENTED_EDGE('',*,*,#1250,.T.);
#1270=EDGE_CURVE('',#1240,#1220,#1200,.T.);
#1280=ORIENTED_EDGE('',*,*,#1270,.T.);
#1290=EDGE_LOOP('',(#1280,#1260));
#1300=FACE_OUTER_BOUND('',#1290,.T.);
#1310=ADVANCED_FACE('',(#1150,#1300),#1000,.T.);
#1320=CARTESIAN_POINT('',(32.3442712104127,33.5571830000001,
-4.86430930696964));
#1330=DIRECTION('',(-1.05192018418192E-30,-1.,3.59853742143842E-15));
#1340=DIRECTION('',(1.,-1.70532717226612E-31,2.44929359829471E-16));
#1350=AXIS2_PLACEMENT_3D('',#1320,#1330,#1340);
#1360=PLANE('',#1350);
#1370=CARTESIAN_POINT('',(35.922181456812,33.5571830000001,
-11.463720874298));
#1380=DIRECTION('',(0.,-1.,0.));
#1390=DIRECTION('',(-1.,0.,0.));
#1400=AXIS2_PLACEMENT_3D('',#1370,#1380,#1390);
#1410=CIRCLE('',#1400,3.5);
#1420=CARTESIAN_POINT('',(32.422181456812,33.5571830000001,
-11.463720874298));
#1430=VERTEX_POINT('',#1420);
#1440=CARTESIAN_POINT('',(39.422181456812,33.5571830000001,
-11.463720874298));
#1450=VERTEX_POINT('',#1440);
#1460=EDGE_CURVE('',#1430,#1450,#1410,.T.);
#1470=ORIENTED_EDGE('',*,*,#1460,.T.);
#1480=EDGE_CURVE('',#1450,#1430,#1410,.T.);
#1490=ORIENTED_EDGE('',*,*,#1480,.T.);
#1500=EDGE_LOOP('',(#1490,#1470));
#1510=FACE_OUTER_BOUND('',#1500,.T.);
#1520=ADVANCED_FACE('',(#1510),#1360,.T.);
#1530=CARTESIAN_POINT('',(35.922181456812,28.4387528604072,
-11.463720874298));
#1540=DIRECTION('',(0.,-1.,0.));
#1550=DIRECTION('',(-1.,0.,0.));
#1560=AXIS2_PLACEMENT_3D('',#1530,#1540,#1550);
#1570=CYLINDRICAL_SURFACE('',#1560,3.5);
#1580=CARTESIAN_POINT('',(39.422181456812,28.4387528604072,
-11.463720874298));
#1590=DIRECTION('',(0.,-1.,0.));
#1600=VECTOR('',#1590,1.);
#1610=LINE('',#1580,#1600);
#1620=CARTESIAN_POINT('',(39.422181456812,21.0016693728672,
-11.463720874298));
#1630=VERTEX_POINT('',#1620);
#1640=EDGE_CURVE('',#1450,#1630,#1610,.T.);
#1650=ORIENTED_EDGE('',*,*,#1640,.T.);
#1660=ORIENTED_EDGE('',*,*,#1480,.F.);
#1670=CARTESIAN_POINT('',(32.422181456812,28.4387528604072,
-11.463720874298));
#1680=DIRECTION('',(0.,-1.,0.));
#1690=VECTOR('',#1680,1.);
#1700=LINE('',#1670,#1690);
#1710=CARTESIAN_POINT('',(32.422181456812,21.0016693728672,
-11.463720874298));
#1720=VERTEX_POINT('',#1710);
#1730=EDGE_CURVE('',#1430,#1720,#1700,.T.);
#1740=ORIENTED_EDGE('',*,*,#1730,.F.);
#1750=CARTESIAN_POINT('',(35.922181456812,21.0016693728672,
-11.463720874298));
#1760=DIRECTION('',(0.,-1.,0.));
#1770=DIRECTION('',(-0.,0.,-1.));
#1780=AXIS2_PLACEMENT_3D('',#1750,#1760,#1770);
#1790=CIRCLE('',#1780,3.5);
#1800=EDGE_CURVE('',#1630,#1720,#1790,.T.);
#1810=ORIENTED_EDGE('',*,*,#1800,.T.);
#1820=EDGE_LOOP('',(#1810,#1740,#1660,#1650));
#1830=FACE_OUTER_BOUND('',#1820,.T.);
#1840=ADVANCED_FACE('',(#1830),#1570,.F.);
#1850=CARTESIAN_POINT('',(35.922181456812,21.0016693728672,
-11.463720874298));
#1860=DIRECTION('',(0.,-1.,0.));
#1870=DIRECTION('',(1.,0.,0.));
#1880=AXIS2_PLACEMENT_3D('',#1850,#1860,#1870);
#1890=CONICAL_SURFACE('',#1880,3.5,0.523598775598299);
#1900=CARTESIAN_POINT('',(32.422181456812,21.0016693728672,
-11.463720874298));
#1910=DIRECTION('',(-0.5,-0.866025403784439,0.));
#1920=VECTOR('',#1910,7.);
#1930=LINE('',#1900,#1920);
#1940=CARTESIAN_POINT('',(30.722181456812,18.0571830000001,
-11.463720874298));
#1950=VERTEX_POINT('',#1940);
#1960=EDGE_CURVE('',#1720,#1950,#1930,.T.);
#1970=ORIENTED_EDGE('',*,*,#1960,.F.);
#1980=CARTESIAN_POINT('',(35.922181456812,18.0571830000001,
-11.463720874298));
#1990=DIRECTION('',(0.,-1.,0.));
#2000=DIRECTION('',(-0.,0.,-1.));
#2010=AXIS2_PLACEMENT_3D('',#1980,#1990,#2000);
#2020=CIRCLE('',#2010,5.2);
#2030=CARTESIAN_POINT('',(41.122181456812,18.0571830000001,
-11.463720874298));
#2040=VERTEX_POINT('',#2030);
#2050=EDGE_CURVE('',#2040,#1950,#2020,.T.);
#2060=ORIENTED_EDGE('',*,*,#2050,.T.);
#2070=CARTESIAN_POINT('',(39.422181456812,21.0016693728672,
-11.463720874298));
#2080=DIRECTION('',(0.5,-0.866025403784439,0.));
#2090=VECTOR('',#2080,7.);
#2100=LINE('',#2070,#2090);
#2110=EDGE_CURVE('',#1630,#2040,#2100,.T.);
#2120=ORIENTED_EDGE('',*,*,#2110,.T.);
#2130=ORIENTED_EDGE('',*,*,#1800,.F.);
#2140=EDGE_LOOP('',(#2130,#2120,#2060,#1970));
#2150=FACE_OUTER_BOUND('',#2140,.T.);
#2160=ADVANCED_FACE('',(#2150),#1890,.F.);
#2170=CARTESIAN_POINT('',(48.579575456812,18.0571830000002,
0.536281525702102));
#2180=DIRECTION('',(2.17633768505685E-31,1.,-1.08086192675748E-15));
#2190=DIRECTION('',(-2.44929359829471E-16,1.08086192675748E-15,1.));
#2200=AXIS2_PLACEMENT_3D('',#2170,#2180,#2190);
#2210=PLANE('',#2200);
#2220=EDGE_CURVE('',#1950,#2040,#2020,.T.);
#2230=ORIENTED_EDGE('',*,*,#2220,.F.);
#2240=ORIENTED_EDGE('',*,*,#2050,.F.);
#2250=EDGE_LOOP('',(#2240,#2230));
#2260=FACE_BOUND('',#2250,.T.);
#2270=CARTESIAN_POINT('',(35.922181456812,18.0571830000001,
-11.4637208742979));
#2280=DIRECTION('',(0.,1.,1.11022302462516E-16));
#2290=DIRECTION('',(-1.,0.,0.));
#2300=AXIS2_PLACEMENT_3D('',#2270,#2280,#2290);
#2310=CIRCLE('',#2300,8.);
#2320=CARTESIAN_POINT('',(27.922181456812,18.0571830000001,
-11.4637208742979));
#2330=VERTEX_POINT('',#2320);
#2340=CARTESIAN_POINT('',(43.922181456812,18.0571830000001,
-11.4637208742979));
#2350=VERTEX_POINT('',#2340);
#2360=EDGE_CURVE('',#2330,#2350,#2310,.T.);
#2370=ORIENTED_EDGE('',*,*,#2360,.F.);
#2380=EDGE_CURVE('',#2350,#2330,#2310,.T.);
#2390=ORIENTED_EDGE('',*,*,#2380,.F.);
#2400=EDGE_LOOP('',(#2390,#2370));
#2410=FACE_OUTER_BOUND('',#2400,.T.);
#2420=ADVANCED_FACE('',(#2260,#2410),#2210,.F.);
#2430=CARTESIAN_POINT('',(35.922181456812,33.0571830000001,
-11.4637208742979));
#2440=DIRECTION('',(5.42358974422539E-31,1.,-2.40665319221843E-15));
#2450=DIRECTION('',(-3.23050730695571E-46,2.40665319221843E-15,1.));
#2460=AXIS2_PLACEMENT_3D('',#2430,#2440,#2450);
#2470=TOROIDAL_SURFACE('',#2460,7.1,1.);
#2480=CARTESIAN_POINT('',(35.922181456812,33.0571830000002,
-4.36372087429793));
#2490=DIRECTION('',(1.,-5.42358974422539E-31,1.30526995712231E-45));
#2500=DIRECTION('',(5.42358974422539E-31,1.,1.11022302462516E-16));
#2510=AXIS2_PLACEMENT_3D('',#2480,#2490,#2500);
#2520=CIRCLE('',#2510,1.);
#2530=CARTESIAN_POINT('',(35.922181456812,33.0571830000002,
-5.36372087429793));
#2540=VERTEX_POINT('',#2530);
#2550=CARTESIAN_POINT('',(35.922181456812,34.0571830000002,
-4.36372087429793));
#2560=VERTEX_POINT('',#2550);
#2570=EDGE_CURVE('',#2540,#2560,#2520,.T.);
#2580=ORIENTED_EDGE('',*,*,#2570,.T.);
#2590=CARTESIAN_POINT('',(35.922181456812,33.0571830000001,
-11.4637208742979));
#2600=DIRECTION('',(5.42358974422539E-31,1.,-2.40665319221843E-15));
#2610=DIRECTION('',(0.,2.40665319221843E-15,1.));
#2620=AXIS2_PLACEMENT_3D('',#2590,#2600,#2610);
#2630=CIRCLE('',#2620,6.1);
#2640=CARTESIAN_POINT('',(35.922181456812,33.0571830000001,
-17.5637208742979));
#2650=VERTEX_POINT('',#2640);
#2660=EDGE_CURVE('',#2650,#2540,#2630,.T.);
#2670=ORIENTED_EDGE('',*,*,#2660,.T.);
#2680=CARTESIAN_POINT('',(35.922181456812,33.0571830000001,
-18.5637208742979));
#2690=DIRECTION('',(-1.,5.42358974422539E-31,-1.30526995712231E-45));
#2700=DIRECTION('',(5.42358974422539E-31,1.,-4.92432868689937E-15));
#2710=AXIS2_PLACEMENT_3D('',#2680,#2690,#2700);
#2720=CIRCLE('',#2710,1.);
#2730=CARTESIAN_POINT('',(35.922181456812,34.0571830000001,
-18.5637208742979));
#2740=VERTEX_POINT('',#2730);
#2750=EDGE_CURVE('',#2650,#2740,#2720,.T.);
#2760=ORIENTED_EDGE('',*,*,#2750,.F.);
#2770=CARTESIAN_POINT('',(35.922181456812,34.0571830000002,
-11.4637208742979));
#2780=DIRECTION('',(5.42358974422539E-31,1.,-2.40665319221843E-15));
#2790=DIRECTION('',(2.1972283191039E-46,2.40665319221843E-15,1.));
#2800=AXIS2_PLACEMENT_3D('',#2770,#2780,#2790);
#2810=CIRCLE('',#2800,7.1);
#2820=EDGE_CURVE('',#2740,#2560,#2810,.T.);
#2830=ORIENTED_EDGE('',*,*,#2820,.F.);
#2840=EDGE_LOOP('',(#2830,#2760,#2670,#2580));
#2850=FACE_OUTER_BOUND('',#2840,.T.);
#2860=ADVANCED_FACE('',(#2850),#2470,.F.);
#2870=CARTESIAN_POINT('',(35.922181456812,34.057183,-11.4637208742979));
#2880=DIRECTION('',(0.,1.,1.11022302462516E-16));
#2890=DIRECTION('',(-1.,0.,0.));
#2900=AXIS2_PLACEMENT_3D('',#2870,#2880,#2890);
#2910=CYLINDRICAL_SURFACE('',#2900,8.);
#2920=CARTESIAN_POINT('',(43.922181456812,34.057183,-11.4637208742979));
#2930=DIRECTION('',(0.,1.,1.11022302462516E-16));
#2940=VECTOR('',#2930,1.);
#2950=LINE('',#2920,#2940);
#2960=CARTESIAN_POINT('',(43.922181456812,20.5571830000003,
-11.4637208742979));
#2970=VERTEX_POINT('',#2960);
#2980=EDGE_CURVE('',#2350,#2970,#2950,.T.);
#2990=ORIENTED_EDGE('',*,*,#2980,.F.);
#3000=CARTESIAN_POINT('',(35.922181456812,20.5571830000003,
-11.4637208742979));
#3010=DIRECTION('',(2.71179487211269E-31,1.,-1.14781544487796E-15));
#3020=DIRECTION('',(-1.,0.,0.));
#3030=AXIS2_PLACEMENT_3D('',#3000,#3010,#3020);
#3040=CIRCLE('',#3030,8.);
#3050=CARTESIAN_POINT('',(35.922181456812,20.5571830000002,
-19.4637208742979));
#3060=VERTEX_POINT('',#3050);
#3070=EDGE_CURVE('',#2970,#3060,#3040,.T.);
#3080=ORIENTED_EDGE('',*,*,#3070,.F.);
#3090=CARTESIAN_POINT('',(27.922181456812,20.5571830000003,
-11.4637208742979));
#3100=VERTEX_POINT('',#3090);
#3110=EDGE_CURVE('',#3060,#3100,#3040,.T.);
#3120=ORIENTED_EDGE('',*,*,#3110,.F.);
#3130=CARTESIAN_POINT('',(27.922181456812,34.057183,-11.4637208742979));
#3140=DIRECTION('',(0.,1.,1.11022302462516E-16));
#3150=VECTOR('',#3140,1.);
#3160=LINE('',#3130,#3150);
#3170=EDGE_CURVE('',#2330,#3100,#3160,.T.);
#3180=ORIENTED_EDGE('',*,*,#3170,.T.);
#3190=ORIENTED_EDGE('',*,*,#2380,.T.);
#3200=EDGE_LOOP('',(#3190,#3180,#3120,#3080,#2990));
#3210=FACE_OUTER_BOUND('',#3200,.T.);
#3220=ADVANCED_FACE('',(#3210),#2910,.T.);
#3230=CARTESIAN_POINT('',(35.922181456812,37.557183,-11.463720874298));
#3240=DIRECTION('',(0.,1.,1.11022302462516E-16));
#3250=DIRECTION('',(-1.,0.,0.));
#3260=AXIS2_PLACEMENT_3D('',#3230,#3240,#3250);
#3270=TOROIDAL_SURFACE('',#3260,5.25,0.5);
#3280=CARTESIAN_POINT('',(41.172181456812,37.557183,-11.463720874298));
#3290=DIRECTION('',(0.,1.11022302462516E-16,-1.));
#3300=DIRECTION('',(1.,0.,0.));
#3310=AXIS2_PLACEMENT_3D('',#3280,#3290,#3300);
#3320=CIRCLE('',#3310,0.5);
#3330=EDGE_CURVE('',#1090,#740,#3320,.T.);
#3340=ORIENTED_EDGE('',*,*,#3330,.F.);
#3350=ORIENTED_EDGE('',*,*,#910,.F.);
#3360=CARTESIAN_POINT('',(30.672181456812,37.557183,-11.463720874298));
#3370=DIRECTION('',(0.,-1.11022302462516E-16,1.));
#3380=DIRECTION('',(-1.,0.,0.));
#3390=AXIS2_PLACEMENT_3D('',#3360,#3370,#3380);
#3400=CIRCLE('',#3390,0.5);
#3410=EDGE_CURVE('',#1070,#830,#3400,.T.);
#3420=ORIENTED_EDGE('',*,*,#3410,.T.);
#3430=ORIENTED_EDGE('',*,*,#1120,.T.);
#3440=EDGE_LOOP('',(#3430,#3420,#3350,#3340));
#3450=FACE_OUTER_BOUND('',#3440,.T.);
#3460=ADVANCED_FACE('',(#3450),#3270,.F.);
#3470=CARTESIAN_POINT('',(35.922181456812,18.2469742102152,
-11.4637208742979));
#3480=DIRECTION('',(0.,-1.,2.56365136948927E-15));
#3490=DIRECTION('',(2.44929359829471E-16,-2.40665319221843E-15,-1.));
#3500=AXIS2_PLACEMENT_3D('',#3470,#3480,#3490);
#3510=CONICAL_SURFACE('',#3500,12.001399,1.0471975511966);
#3520=CARTESIAN_POINT('',(35.922181456812,18.2469742102152,
0.537678125702065));
#3530=DIRECTION('',(0.,-0.499999999999998,0.86602540378444));
#3540=VECTOR('',#3530,13.8580218866042);
#3550=LINE('',#3520,#3540);
#3560=CARTESIAN_POINT('',(35.922181456812,21.6541485114606,
-5.3637208742979));
#3570=VERTEX_POINT('',#3560);
#3580=CARTESIAN_POINT('',(35.922181456812,20.5571830000003,
-3.4637208742979));
#3590=VERTEX_POINT('',#3580);
#3600=EDGE_CURVE('',#3570,#3590,#3550,.T.);
#3610=ORIENTED_EDGE('',*,*,#3600,.F.);
#3620=EDGE_CURVE('',#3100,#3590,#3040,.T.);
#3630=ORIENTED_EDGE('',*,*,#3620,.T.);
#3640=ORIENTED_EDGE('',*,*,#3110,.T.);
#3650=CARTESIAN_POINT('',(35.922181456812,18.2469742102152,
-23.4651198742978));
#3660=DIRECTION('',(0.,-0.500000000000002,-0.866025403784438));
#3670=VECTOR('',#3660,13.8580218866042);
#3680=LINE('',#3650,#3670);
#3690=CARTESIAN_POINT('',(35.922181456812,21.6541485114605,
-17.5637208742979));
#3700=VERTEX_POINT('',#3690);
#3710=EDGE_CURVE('',#3700,#3060,#3680,.T.);
#3720=ORIENTED_EDGE('',*,*,#3710,.T.);
#3730=CARTESIAN_POINT('',(35.922181456812,21.6541485114605,
-11.4637208742979));
#3740=DIRECTION('',(-5.42358974422539E-31,-1.,2.40665319221843E-15));
#3750=DIRECTION('',(2.91206039245943E-16,-2.40665319221843E-15,-1.));
#3760=AXIS2_PLACEMENT_3D('',#3730,#3740,#3750);
#3770=CIRCLE('',#3760,6.1);
#3780=EDGE_CURVE('',#3570,#3700,#3770,.T.);
#3790=ORIENTED_EDGE('',*,*,#3780,.T.);
#3800=EDGE_LOOP('',(#3790,#3720,#3640,#3630,#3610));
#3810=FACE_OUTER_BOUND('',#3800,.T.);
#3820=ADVANCED_FACE('',(#3810),#3510,.T.);
#3830=CARTESIAN_POINT('',(35.922181456812,34.0571830000001,
-20.5894203742979));
#3840=DIRECTION('',(-5.42358974422539E-31,-1.,2.40665319221843E-15));
#3850=DIRECTION('',(2.44929359829471E-16,-2.40665319221843E-15,-1.));
#3860=AXIS2_PLACEMENT_3D('',#3830,#3840,#3850);
#3870=PLANE('',#3860);
#3880=EDGE_CURVE('',#2560,#2740,#2810,.T.);
#3890=ORIENTED_EDGE('',*,*,#3880,.T.);
#3900=ORIENTED_EDGE('',*,*,#2820,.T.);
#3910=EDGE_LOOP('',(#3900,#3890));
#3920=FACE_BOUND('',#3910,.T.);
#3930=CARTESIAN_POINT('',(35.922181456812,34.0571830000001,
-11.463720874298));
#3940=DIRECTION('',(0.,1.,1.11022302462516E-16));
#3950=DIRECTION('',(-1.,0.,0.));
#3960=AXIS2_PLACEMENT_3D('',#3930,#3940,#3950);
#3970=CIRCLE('',#3960,10.);
#3980=CARTESIAN_POINT('',(25.922181456812,34.0571830000001,
-11.463720874298));
#3990=VERTEX_POINT('',#3980);
#4000=CARTESIAN_POINT('',(45.922181456812,34.0571830000001,
-11.463720874298));
#4010=VERTEX_POINT('',#4000);
#4020=EDGE_CURVE('',#3990,#4010,#3970,.T.);
#4030=ORIENTED_EDGE('',*,*,#4020,.F.);
#4040=EDGE_CURVE('',#4010,#3990,#3970,.T.);
#4050=ORIENTED_EDGE('',*,*,#4040,.F.);
#4060=EDGE_LOOP('',(#4050,#4030));
#4070=FACE_OUTER_BOUND('',#4060,.T.);
#4080=ADVANCED_FACE('',(#3920,#4070),#3870,.T.);
#4090=CARTESIAN_POINT('',(35.922181456812,27.8123644855411,
-11.4637208742979));
#4100=DIRECTION('',(5.42358974422539E-31,1.,-2.40665319221843E-15));
#4110=DIRECTION('',(-2.44929359829471E-16,2.40665319221843E-15,1.));
#4120=AXIS2_PLACEMENT_3D('',#4090,#4100,#4110);
#4130=CYLINDRICAL_SURFACE('',#4120,6.1);
#4140=CARTESIAN_POINT('',(35.922181456812,27.8123644855411,
-5.36372087429792));
#4150=DIRECTION('',(5.42358974422539E-31,1.,-2.40665319221843E-15));
#4160=VECTOR('',#4150,1.);
#4170=LINE('',#4140,#4160);
#4180=EDGE_CURVE('',#3570,#2540,#4170,.T.);
#4190=ORIENTED_EDGE('',*,*,#4180,.T.);
#4200=ORIENTED_EDGE('',*,*,#3780,.F.);
#4210=CARTESIAN_POINT('',(35.922181456812,27.8123644855411,
-17.5637208742979));
#4220=DIRECTION('',(5.42358974422539E-31,1.,-2.40665319221843E-15));
#4230=VECTOR('',#4220,1.);
#4240=LINE('',#4210,#4230);
#4250=EDGE_CURVE('',#3700,#2650,#4240,.T.);
#4260=ORIENTED_EDGE('',*,*,#4250,.F.);
#4270=ORIENTED_EDGE('',*,*,#2660,.F.);
#4280=EDGE_LOOP('',(#4270,#4260,#4200,#4190));
#4290=FACE_OUTER_BOUND('',#4280,.T.);
#4300=ADVANCED_FACE('',(#4290),#4130,.T.);
#4310=CARTESIAN_POINT('',(35.922181456812,40.057183,-11.463720874298));
#4320=DIRECTION('',(0.,1.,1.11022302462516E-16));
#4330=DIRECTION('',(-1.,0.,0.));
#4340=AXIS2_PLACEMENT_3D('',#4310,#4320,#4330);
#4350=CYLINDRICAL_SURFACE('',#4340,10.);
#4360=CARTESIAN_POINT('',(25.922181456812,40.057183,-11.463720874298));
#4370=DIRECTION('',(0.,1.,1.11022302462516E-16));
#4380=VECTOR('',#4370,1.);
#4390=LINE('',#4360,#4380);
#4400=EDGE_CURVE('',#3990,#1220,#4390,.T.);
#4410=ORIENTED_EDGE('',*,*,#4400,.T.);
#4420=ORIENTED_EDGE('',*,*,#4040,.T.);
#4430=CARTESIAN_POINT('',(45.922181456812,40.057183,-11.463720874298));
#4440=DIRECTION('',(0.,1.,1.11022302462516E-16));
#4450=VECTOR('',#4440,1.);
#4460=LINE('',#4430,#4450);
#4470=EDGE_CURVE('',#4010,#1240,#4460,.T.);
#4480=ORIENTED_EDGE('',*,*,#4470,.F.);
#4490=ORIENTED_EDGE('',*,*,#1270,.F.);
#4500=EDGE_LOOP('',(#4490,#4480,#4420,#4410));
#4510=FACE_OUTER_BOUND('',#4500,.T.);
#4520=ADVANCED_FACE('',(#4510),#4350,.T.);
#4530=ORIENTED_EDGE('',*,*,#3620,.F.);
#4540=EDGE_CURVE('',#3590,#2970,#3040,.T.);
#4550=ORIENTED_EDGE('',*,*,#4540,.F.);
#4560=ORIENTED_EDGE('',*,*,#2980,.T.);
#4570=ORIENTED_EDGE('',*,*,#2360,.T.);
#4580=ORIENTED_EDGE('',*,*,#3170,.F.);
#4590=EDGE_LOOP('',(#4580,#4570,#4560,#4550,#4530));
#4600=FACE_OUTER_BOUND('',#4590,.T.);
#4610=ADVANCED_FACE('',(#4600),#2910,.T.);
#4620=EDGE_CURVE('',#2540,#2650,#2630,.T.);
#4630=ORIENTED_EDGE('',*,*,#4620,.F.);
#4640=ORIENTED_EDGE('',*,*,#4250,.T.);
#4650=EDGE_CURVE('',#3700,#3570,#3770,.T.);
#4660=ORIENTED_EDGE('',*,*,#4650,.F.);
#4670=ORIENTED_EDGE('',*,*,#4180,.F.);
#4680=EDGE_LOOP('',(#4670,#4660,#4640,#4630));
#4690=FACE_OUTER_BOUND('',#4680,.T.);
#4700=ADVANCED_FACE('',(#4690),#4130,.T.);
#4710=ORIENTED_EDGE('',*,*,#4020,.T.);
#4720=ORIENTED_EDGE('',*,*,#4400,.F.);
#4730=ORIENTED_EDGE('',*,*,#1250,.F.);
#4740=ORIENTED_EDGE('',*,*,#4470,.T.);
#4750=EDGE_LOOP('',(#4740,#4730,#4720,#4710));
#4760=FACE_OUTER_BOUND('',#4750,.T.);
#4770=ADVANCED_FACE('',(#4760),#4350,.T.);
#4780=ORIENTED_EDGE('',*,*,#1460,.F.);
#4790=ORIENTED_EDGE('',*,*,#1640,.F.);
#4800=EDGE_CURVE('',#1720,#1630,#1790,.T.);
#4810=ORIENTED_EDGE('',*,*,#4800,.T.);
#4820=ORIENTED_EDGE('',*,*,#1730,.T.);
#4830=EDGE_LOOP('',(#4820,#4810,#4790,#4780));
#4840=FACE_OUTER_BOUND('',#4830,.T.);
#4850=ADVANCED_FACE('',(#4840),#1570,.F.);
#4860=ORIENTED_EDGE('',*,*,#3070,.T.);
#4870=ORIENTED_EDGE('',*,*,#4540,.T.);
#4880=ORIENTED_EDGE('',*,*,#3600,.T.);
#4890=ORIENTED_EDGE('',*,*,#4650,.T.);
#4900=ORIENTED_EDGE('',*,*,#3710,.F.);
#4910=EDGE_LOOP('',(#4900,#4890,#4880,#4870,#4860));
#4920=FACE_OUTER_BOUND('',#4910,.T.);
#4930=ADVANCED_FACE('',(#4920),#3510,.T.);
#4940=ORIENTED_EDGE('',*,*,#2220,.T.);
#4950=ORIENTED_EDGE('',*,*,#1960,.T.);
#4960=ORIENTED_EDGE('',*,*,#4800,.F.);
#4970=ORIENTED_EDGE('',*,*,#2110,.F.);
#4980=EDGE_LOOP('',(#4970,#4960,#4950,#4940));
#4990=FACE_OUTER_BOUND('',#4980,.T.);
#5000=ADVANCED_FACE('',(#4990),#1890,.F.);
#5010=EDGE_CURVE('',#830,#740,#900,.T.);
#5020=ORIENTED_EDGE('',*,*,#5010,.T.);
#5030=ORIENTED_EDGE('',*,*,#840,.F.);
#5040=ORIENTED_EDGE('',*,*,#580,.F.);
#5050=ORIENTED_EDGE('',*,*,#750,.T.);
#5060=EDGE_LOOP('',(#5050,#5040,#5030,#5020));
#5070=FACE_OUTER_BOUND('',#5060,.T.);
#5080=ADVANCED_FACE('',(#5070),#680,.T.);
#5090=ORIENTED_EDGE('',*,*,#1100,.T.);
#5100=ORIENTED_EDGE('',*,*,#3410,.F.);
#5110=ORIENTED_EDGE('',*,*,#5010,.F.);
#5120=ORIENTED_EDGE('',*,*,#3330,.T.);
#5130=EDGE_LOOP('',(#5120,#5110,#5100,#5090));
#5140=FACE_OUTER_BOUND('',#5130,.T.);
#5150=ADVANCED_FACE('',(#5140),#3270,.F.);
#5160=ORIENTED_EDGE('',*,*,#3880,.F.);
#5170=ORIENTED_EDGE('',*,*,#2750,.T.);
#5180=ORIENTED_EDGE('',*,*,#4620,.T.);
#5190=ORIENTED_EDGE('',*,*,#2570,.F.);
#5200=EDGE_LOOP('',(#5190,#5180,#5170,#5160));
#5210=FACE_OUTER_BOUND('',#5200,.T.);
#5220=ADVANCED_FACE('',(#5210),#2470,.F.);
#5230=CLOSED_SHELL('',(#950,#1310,#1520,#1840,#2160,#2420,#2860,#3220,
#3460,#3820,#4080,#4300,#4520,#4610,#4700,#4770,#4850,#4930,#5000,#5080,
#5150,#5220,#210,#550,#630));
#5240=MANIFOLD_SOLID_BREP('',#5230);
#5250=CARTESIAN_POINT('',(0.,0.,0.));
#5260=DIRECTION('',(0.,0.,1.));
#5270=DIRECTION('',(1.,0.,0.));
#5280=AXIS2_PLACEMENT_3D('',#5250,#5260,#5270);
#5290=APPLICATION_CONTEXT(' ');
#5300=APPLICATION_PROTOCOL_DEFINITION(' ','automotive_design',1998,#5290
);
#5310=PRODUCT_CONTEXT('',#5290,'mechanical');
#5320=PRODUCT_DEFINITION_CONTEXT('part definition',#5290,'design');
#5330=PRODUCT('CYMA_25','CYMA_25','',(#5310));
#5340=PRODUCT_RELATED_PRODUCT_CATEGORY('part',' ',(#5330));
#5350=PRODUCT_DEFINITION_FORMATION_WITH_SPECIFIED_SOURCE('','',#5330,
.BOUGHT.);
#5360=PRODUCT_DEFINITION('',' ',#5350,#5320);
#5370=PRODUCT_DEFINITION_SHAPE('','',#5360);
#5380=DIMENSIONAL_EXPONENTS(1.,0.,0.,0.,0.,0.,0.);
#5390=DIMENSIONAL_EXPONENTS(0.,0.,0.,0.,0.,0.,0.);
#5400=DIMENSIONAL_EXPONENTS(0.,0.,0.,0.,0.,0.,0.);
#5410=(LENGTH_UNIT() NAMED_UNIT(*) SI_UNIT(.MILLI.,.METRE.));
#5420=(NAMED_UNIT(*) PLANE_ANGLE_UNIT() SI_UNIT($,.RADIAN.));
#5430=(NAMED_UNIT(*) SI_UNIT($,.STERADIAN.) SOLID_ANGLE_UNIT());
#5440=(GEOMETRIC_REPRESENTATION_CONTEXT(3) 
GLOBAL_UNCERTAINTY_ASSIGNED_CONTEXT((#5450)) 
GLOBAL_UNIT_ASSIGNED_CONTEXT((#5410,#5420,#5430)) REPRESENTATION_CONTEXT
('',''));
#5450=UNCERTAINTY_MEASURE_WITH_UNIT(LENGTH_MEASURE(1.E-6),#5410,
'distance_accuracy_value','maximum gap value');
#5460=ADVANCED_BREP_SHAPE_REPRESENTATION('',(#5280,#5240),#5440);
#5470=SHAPE_DEFINITION_REPRESENTATION(#5370,#5460);
#5480=COLOUR_RGB('',0.600000023841858,0.600000023841858,
0.600000023841858);
#5490=FILL_AREA_STYLE_COLOUR('',#5480);
#5500=FILL_AREA_STYLE('',(#5490));
#5510=SURFACE_STYLE_FILL_AREA(#5500);
#5520=SURFACE_SIDE_STYLE('',(#5510));
#5530=SURFACE_STYLE_USAGE(.BOTH.,#5520);
#5540=PRESENTATION_STYLE_ASSIGNMENT((#5530));
#5550=STYLED_ITEM('',(#5540),#5240);
#5560=DRAUGHTING_MODEL('',(#5550),#5440);
#5570=CARTESIAN_POINT('',(95.219004456812,78.4182358742978,-68.657183));
#5580=DIRECTION('',(-2.44929359829471E-16,1.,-2.40665319221843E-15));
#5590=DIRECTION('',(-1.,-2.44929359829471E-16,5.42358974422539E-31));
#5600=AXIS2_PLACEMENT_3D('',#5570,#5580,#5590);
#5610=ITEM_DEFINED_TRANSFORMATION('CYMA_25','',#5280,#5600);
#5620=APPLICATION_CONTEXT(' ');
#5630=APPLICATION_PROTOCOL_DEFINITION(' ','automotive_design',1998,#5620
);
#5640=PRODUCT_CONTEXT('',#5620,'mechanical');
#5650=PRODUCT_DEFINITION_CONTEXT('part definition',#5620,'design');
#5660=PRODUCT('CYMA_25','CYMA_25','',(#5640));
#5670=PRODUCT_RELATED_PRODUCT_CATEGORY('part',' ',(#5660));
#5680=PRODUCT_DEFINITION_FORMATION_WITH_SPECIFIED_SOURCE('','',#5660,
.BOUGHT.);
#5690=PRODUCT_DEFINITION('',' ',#5680,#5650);
#5700=PRODUCT_DEFINITION_SHAPE('','',#5690);
#5710=DIMENSIONAL_EXPONENTS(1.,0.,0.,0.,0.,0.,0.);
#5720=DIMENSIONAL_EXPONENTS(0.,0.,0.,0.,0.,0.,0.);
#5730=DIMENSIONAL_EXPONENTS(0.,0.,0.,0.,0.,0.,0.);
#5740=(LENGTH_UNIT() NAMED_UNIT(*) SI_UNIT(.MILLI.,.METRE.));
#5750=(NAMED_UNIT(*) PLANE_ANGLE_UNIT() SI_UNIT($,.RADIAN.));
#5760=(NAMED_UNIT(*) SI_UNIT($,.STERADIAN.) SOLID_ANGLE_UNIT());
#5770=(GEOMETRIC_REPRESENTATION_CONTEXT(3) 
GLOBAL_UNCERTAINTY_ASSIGNED_CONTEXT((#5780)) 
GLOBAL_UNIT_ASSIGNED_CONTEXT((#5740,#5750,#5760)) REPRESENTATION_CONTEXT
('',''));
#5780=UNCERTAINTY_MEASURE_WITH_UNIT(LENGTH_MEASURE(1.E-6),#5740,
'distance_accuracy_value','maximum gap value');
#5790=SHAPE_REPRESENTATION('',(#5280,#5600),#5770);
#5800=SHAPE_DEFINITION_REPRESENTATION(#5700,#5790);
#5810=(REPRESENTATION_RELATIONSHIP('','',#5460,#5790) 
REPRESENTATION_RELATIONSHIP_WITH_TRANSFORMATION(#5610) 
SHAPE_REPRESENTATION_RELATIONSHIP());
#5820=NEXT_ASSEMBLY_USAGE_OCCURRENCE('1','','CYMA_25',#5690,#5360,'');
#5830=PRODUCT_DEFINITION_SHAPE('','',#5820);
#5840=CONTEXT_DEPENDENT_SHAPE_REPRESENTATION(#5810,#5830);
ENDSEC;
END-ISO-10303-21;
